 0
SECTION
 2
HEADER
 9
$ACADVER
 1
AC1009
 0
ENDSEC
 0
SECTION
 2
TABLES
 0
TABLE
 2
LTYPE
 70
1
 0
LTYPE
 2
CONTINUOUS
 70
64
 3
solid line
 72
65
 73
0
 40
0.0
 0
ENDTAB
 0
TABLE
 2
LAYER
 70
6
 0
LAYER
 2
0
 70
0
 62
7
 6
CONTINUOUS
 0
LAYER
 2
NULL
 70
64
 62
7
 6
CONTINUOUS
 0
LAYER
 2
NULL.1
 70
64
 62
7
 6
CONTINUOUS
 0
LAYER
 2
KLOCEK_5
 70
64
 62
7
 6
CONTINUOUS
 0
LAYER
 2
WIDOK_Z_GORY
 70
64
 62
7
 6
CONTINUOUS
 0
LAYER
 2
SYMMETRY
 70
64
 62
7
 6
CONTINUOUS
 0
LAYER
 2
OBIEKT_ZEROWY_1
 70
64
 62
7
 6
CONTINUOUS
 0
LAYER
 2
OPERACJA_BOOLE_A
 70
64
 62
7
 6
CONTINUOUS
 0
LAYER
 2
OPERACJA_BOOLE_A_3
 70
64
 62
7
 6
CONTINUOUS
 0
LAYER
 2
OPERACJA_BOOLE_A_2
 70
64
 62
7
 6
CONTINUOUS
 0
LAYER
 2
OPERACJA_BOOLE_A_1
 70
64
 62
7
 6
CONTINUOUS
 0
LAYER
 2
OPERACJA_BOOLE_A_2.1
 70
64
 62
7
 6
CONTINUOUS
 0
LAYER
 2
OPERACJA_BOOLE_A_1.1
 70
64
 62
7
 6
CONTINUOUS
 0
LAYER
 2
OPERACJA_BOOLE_A_2.2
 70
64
 62
7
 6
CONTINUOUS
 0
LAYER
 2
OPERACJA_BOOLE_A_1.2
 70
64
 62
7
 6
CONTINUOUS
 0
LAYER
 2
SZE_CIAN
 70
64
 62
7
 6
CONTINUOUS
 0
LAYER
 2
SZE_CIAN.1
 70
64
 62
7
 6
CONTINUOUS
 0
LAYER
 2
1
 70
64
 62
7
 6
CONTINUOUS
 0
LAYER
 2
OPERACJA_BOOLE_A.1
 70
64
 62
7
 6
CONTINUOUS
 0
LAYER
 2
OPERACJA_BOOLE_A_1.3
 70
64
 62
7
 6
CONTINUOUS
 0
LAYER
 2
OPERACJA_BOOLE_A.2
 70
64
 62
7
 6
CONTINUOUS
 0
LAYER
 2
SZE_CIAN.2
 70
64
 62
7
 6
CONTINUOUS
 0
LAYER
 2
SZE_CIAN.3
 70
64
 62
7
 6
CONTINUOUS
 0
LAYER
 2
SZE_CIAN.4
 70
64
 62
7
 6
CONTINUOUS
 0
LAYER
 2
EXTRUDE_NURBS
 70
64
 62
7
 6
CONTINUOUS
 0
LAYER
 2
ZAOKR_GLENIE
 70
64
 62
7
 6
CONTINUOUS
 0
LAYER
 2
ZAKO_CZENIE_2
 70
64
 62
7
 6
CONTINUOUS
 0
LAYER
 2
2
 70
64
 62
7
 6
CONTINUOUS
 0
LAYER
 2
2.1
 70
64
 62
7
 6
CONTINUOUS
 0
LAYER
 2
KLOCEK_4
 70
64
 62
7
 6
CONTINUOUS
 0
LAYER
 2
WIDOK_Z_GORY.1
 70
64
 62
7
 6
CONTINUOUS
 0
LAYER
 2
SYMMETRY.1
 70
64
 62
7
 6
CONTINUOUS
 0
LAYER
 2
OBIEKT_ZEROWY_1.1
 70
64
 62
7
 6
CONTINUOUS
 0
LAYER
 2
OPERACJA_BOOLE_A.3
 70
64
 62
7
 6
CONTINUOUS
 0
LAYER
 2
OPERACJA_BOOLE_A_3.1
 70
64
 62
7
 6
CONTINUOUS
 0
LAYER
 2
OPERACJA_BOOLE_A_2.3
 70
64
 62
7
 6
CONTINUOUS
 0
LAYER
 2
OPERACJA_BOOLE_A_1.4
 70
64
 62
7
 6
CONTINUOUS
 0
LAYER
 2
OPERACJA_BOOLE_A_2.4
 70
64
 62
7
 6
CONTINUOUS
 0
LAYER
 2
OPERACJA_BOOLE_A_1.5
 70
64
 62
7
 6
CONTINUOUS
 0
LAYER
 2
OPERACJA_BOOLE_A_2.5
 70
64
 62
7
 6
CONTINUOUS
 0
LAYER
 2
OPERACJA_BOOLE_A_1.6
 70
64
 62
7
 6
CONTINUOUS
 0
LAYER
 2
SZE_CIAN.5
 70
64
 62
7
 6
CONTINUOUS
 0
LAYER
 2
SZE_CIAN.6
 70
64
 62
7
 6
CONTINUOUS
 0
LAYER
 2
1.1
 70
64
 62
7
 6
CONTINUOUS
 0
LAYER
 2
OPERACJA_BOOLE_A.4
 70
64
 62
7
 6
CONTINUOUS
 0
LAYER
 2
OPERACJA_BOOLE_A_1.7
 70
64
 62
7
 6
CONTINUOUS
 0
LAYER
 2
OPERACJA_BOOLE_A.5
 70
64
 62
7
 6
CONTINUOUS
 0
LAYER
 2
SZE_CIAN.7
 70
64
 62
7
 6
CONTINUOUS
 0
LAYER
 2
SZE_CIAN.8
 70
64
 62
7
 6
CONTINUOUS
 0
LAYER
 2
SZE_CIAN.9
 70
64
 62
7
 6
CONTINUOUS
 0
LAYER
 2
EXTRUDE_NURBS.1
 70
64
 62
7
 6
CONTINUOUS
 0
LAYER
 2
ZAOKR_GLENIE.1
 70
64
 62
7
 6
CONTINUOUS
 0
LAYER
 2
ZAKO_CZENIE_2.1
 70
64
 62
7
 6
CONTINUOUS
 0
LAYER
 2
2.2
 70
64
 62
7
 6
CONTINUOUS
 0
LAYER
 2
2.3
 70
64
 62
7
 6
CONTINUOUS
 0
LAYER
 2
KLOCEK_3
 70
64
 62
7
 6
CONTINUOUS
 0
LAYER
 2
WIDOK_Z_GORY.2
 70
64
 62
7
 6
CONTINUOUS
 0
LAYER
 2
SYMMETRY.2
 70
64
 62
7
 6
CONTINUOUS
 0
LAYER
 2
OBIEKT_ZEROWY_1.2
 70
64
 62
7
 6
CONTINUOUS
 0
LAYER
 2
OPERACJA_BOOLE_A.6
 70
64
 62
7
 6
CONTINUOUS
 0
LAYER
 2
OPERACJA_BOOLE_A_3.2
 70
64
 62
7
 6
CONTINUOUS
 0
LAYER
 2
OPERACJA_BOOLE_A_2.6
 70
64
 62
7
 6
CONTINUOUS
 0
LAYER
 2
OPERACJA_BOOLE_A_1.8
 70
64
 62
7
 6
CONTINUOUS
 0
LAYER
 2
OPERACJA_BOOLE_A_2.7
 70
64
 62
7
 6
CONTINUOUS
 0
LAYER
 2
OPERACJA_BOOLE_A_1.9
 70
64
 62
7
 6
CONTINUOUS
 0
LAYER
 2
OPERACJA_BOOLE_A_2.8
 70
64
 62
7
 6
CONTINUOUS
 0
LAYER
 2
OPERACJA_BOOLE_A_1.10
 70
64
 62
7
 6
CONTINUOUS
 0
LAYER
 2
SZE_CIAN.10
 70
64
 62
7
 6
CONTINUOUS
 0
LAYER
 2
SZE_CIAN.11
 70
64
 62
7
 6
CONTINUOUS
 0
LAYER
 2
1.2
 70
64
 62
7
 6
CONTINUOUS
 0
LAYER
 2
OPERACJA_BOOLE_A.7
 70
64
 62
7
 6
CONTINUOUS
 0
LAYER
 2
OPERACJA_BOOLE_A_1.11
 70
64
 62
7
 6
CONTINUOUS
 0
LAYER
 2
OPERACJA_BOOLE_A.8
 70
64
 62
7
 6
CONTINUOUS
 0
LAYER
 2
SZE_CIAN.12
 70
64
 62
7
 6
CONTINUOUS
 0
LAYER
 2
SZE_CIAN.13
 70
64
 62
7
 6
CONTINUOUS
 0
LAYER
 2
SZE_CIAN.14
 70
64
 62
7
 6
CONTINUOUS
 0
LAYER
 2
EXTRUDE_NURBS.2
 70
64
 62
7
 6
CONTINUOUS
 0
LAYER
 2
ZAOKR_GLENIE.2
 70
64
 62
7
 6
CONTINUOUS
 0
LAYER
 2
ZAKO_CZENIE_2.2
 70
64
 62
7
 6
CONTINUOUS
 0
LAYER
 2
2.4
 70
64
 62
7
 6
CONTINUOUS
 0
LAYER
 2
2.5
 70
64
 62
7
 6
CONTINUOUS
 0
LAYER
 2
KLOCEK_2
 70
64
 62
7
 6
CONTINUOUS
 0
LAYER
 2
WIDOK_Z_GORY.3
 70
64
 62
7
 6
CONTINUOUS
 0
LAYER
 2
SYMMETRY.3
 70
64
 62
7
 6
CONTINUOUS
 0
LAYER
 2
OBIEKT_ZEROWY_1.3
 70
64
 62
7
 6
CONTINUOUS
 0
LAYER
 2
OPERACJA_BOOLE_A.9
 70
64
 62
7
 6
CONTINUOUS
 0
LAYER
 2
OPERACJA_BOOLE_A_3.3
 70
64
 62
7
 6
CONTINUOUS
 0
LAYER
 2
OPERACJA_BOOLE_A_2.9
 70
64
 62
7
 6
CONTINUOUS
 0
LAYER
 2
OPERACJA_BOOLE_A_1.12
 70
64
 62
7
 6
CONTINUOUS
 0
LAYER
 2
OPERACJA_BOOLE_A_2.10
 70
64
 62
7
 6
CONTINUOUS
 0
LAYER
 2
OPERACJA_BOOLE_A_1.13
 70
64
 62
7
 6
CONTINUOUS
 0
LAYER
 2
OPERACJA_BOOLE_A_2.11
 70
64
 62
7
 6
CONTINUOUS
 0
LAYER
 2
OPERACJA_BOOLE_A_1.14
 70
64
 62
7
 6
CONTINUOUS
 0
LAYER
 2
SZE_CIAN.15
 70
64
 62
7
 6
CONTINUOUS
 0
LAYER
 2
SZE_CIAN.16
 70
64
 62
7
 6
CONTINUOUS
 0
LAYER
 2
1.3
 70
64
 62
7
 6
CONTINUOUS
 0
LAYER
 2
OPERACJA_BOOLE_A.10
 70
64
 62
7
 6
CONTINUOUS
 0
LAYER
 2
OPERACJA_BOOLE_A_1.15
 70
64
 62
7
 6
CONTINUOUS
 0
LAYER
 2
OPERACJA_BOOLE_A.11
 70
64
 62
7
 6
CONTINUOUS
 0
LAYER
 2
SZE_CIAN.17
 70
64
 62
7
 6
CONTINUOUS
 0
LAYER
 2
SZE_CIAN.18
 70
64
 62
7
 6
CONTINUOUS
 0
LAYER
 2
SZE_CIAN.19
 70
64
 62
7
 6
CONTINUOUS
 0
LAYER
 2
EXTRUDE_NURBS.3
 70
64
 62
7
 6
CONTINUOUS
 0
LAYER
 2
ZAOKR_GLENIE.3
 70
64
 62
7
 6
CONTINUOUS
 0
LAYER
 2
ZAKO_CZENIE_2.3
 70
64
 62
7
 6
CONTINUOUS
 0
LAYER
 2
2.6
 70
64
 62
7
 6
CONTINUOUS
 0
LAYER
 2
2.7
 70
64
 62
7
 6
CONTINUOUS
 0
LAYER
 2
KLOCEK_1
 70
64
 62
7
 6
CONTINUOUS
 0
LAYER
 2
WIDOK_Z_GORY.4
 70
64
 62
7
 6
CONTINUOUS
 0
LAYER
 2
SYMMETRY.4
 70
64
 62
7
 6
CONTINUOUS
 0
LAYER
 2
OBIEKT_ZEROWY_1.4
 70
64
 62
7
 6
CONTINUOUS
 0
LAYER
 2
OPERACJA_BOOLE_A.12
 70
64
 62
7
 6
CONTINUOUS
 0
LAYER
 2
OPERACJA_BOOLE_A_3.4
 70
64
 62
7
 6
CONTINUOUS
 0
LAYER
 2
OPERACJA_BOOLE_A_2.12
 70
64
 62
7
 6
CONTINUOUS
 0
LAYER
 2
OPERACJA_BOOLE_A_1.16
 70
64
 62
7
 6
CONTINUOUS
 0
LAYER
 2
OPERACJA_BOOLE_A_2.13
 70
64
 62
7
 6
CONTINUOUS
 0
LAYER
 2
OPERACJA_BOOLE_A_1.17
 70
64
 62
7
 6
CONTINUOUS
 0
LAYER
 2
OPERACJA_BOOLE_A_2.14
 70
64
 62
7
 6
CONTINUOUS
 0
LAYER
 2
OPERACJA_BOOLE_A_1.18
 70
64
 62
7
 6
CONTINUOUS
 0
LAYER
 2
SZE_CIAN.20
 70
64
 62
7
 6
CONTINUOUS
 0
LAYER
 2
SZE_CIAN.21
 70
64
 62
7
 6
CONTINUOUS
 0
LAYER
 2
1.4
 70
64
 62
7
 6
CONTINUOUS
 0
LAYER
 2
OPERACJA_BOOLE_A.13
 70
64
 62
7
 6
CONTINUOUS
 0
LAYER
 2
OPERACJA_BOOLE_A_1.19
 70
64
 62
7
 6
CONTINUOUS
 0
LAYER
 2
OPERACJA_BOOLE_A.14
 70
64
 62
7
 6
CONTINUOUS
 0
LAYER
 2
SZE_CIAN.22
 70
64
 62
7
 6
CONTINUOUS
 0
LAYER
 2
SZE_CIAN.23
 70
64
 62
7
 6
CONTINUOUS
 0
LAYER
 2
SZE_CIAN.24
 70
64
 62
7
 6
CONTINUOUS
 0
LAYER
 2
EXTRUDE_NURBS.4
 70
64
 62
7
 6
CONTINUOUS
 0
LAYER
 2
ZAOKR_GLENIE.4
 70
64
 62
7
 6
CONTINUOUS
 0
LAYER
 2
ZAKO_CZENIE_2.4
 70
64
 62
7
 6
CONTINUOUS
 0
LAYER
 2
2.8
 70
64
 62
7
 6
CONTINUOUS
 0
LAYER
 2
2.9
 70
64
 62
7
 6
CONTINUOUS
 0
LAYER
 2
KLOCEK
 70
64
 62
7
 6
CONTINUOUS
 0
LAYER
 2
WIDOK_Z_GORY.5
 70
64
 62
7
 6
CONTINUOUS
 0
LAYER
 2
SYMMETRY.5
 70
64
 62
7
 6
CONTINUOUS
 0
LAYER
 2
OBIEKT_ZEROWY_1.5
 70
64
 62
7
 6
CONTINUOUS
 0
LAYER
 2
OPERACJA_BOOLE_A.15
 70
64
 62
7
 6
CONTINUOUS
 0
LAYER
 2
OPERACJA_BOOLE_A_3.5
 70
64
 62
7
 6
CONTINUOUS
 0
LAYER
 2
OPERACJA_BOOLE_A_2.15
 70
64
 62
7
 6
CONTINUOUS
 0
LAYER
 2
OPERACJA_BOOLE_A_1.20
 70
64
 62
7
 6
CONTINUOUS
 0
LAYER
 2
OPERACJA_BOOLE_A_2.16
 70
64
 62
7
 6
CONTINUOUS
 0
LAYER
 2
OPERACJA_BOOLE_A_1.21
 70
64
 62
7
 6
CONTINUOUS
 0
LAYER
 2
OPERACJA_BOOLE_A_2.17
 70
64
 62
7
 6
CONTINUOUS
 0
LAYER
 2
OPERACJA_BOOLE_A_1.22
 70
64
 62
7
 6
CONTINUOUS
 0
LAYER
 2
SZE_CIAN.25
 70
64
 62
7
 6
CONTINUOUS
 0
LAYER
 2
SZE_CIAN.26
 70
64
 62
7
 6
CONTINUOUS
 0
LAYER
 2
1.5
 70
64
 62
7
 6
CONTINUOUS
 0
LAYER
 2
OPERACJA_BOOLE_A.16
 70
64
 62
7
 6
CONTINUOUS
 0
LAYER
 2
OPERACJA_BOOLE_A_1.23
 70
64
 62
7
 6
CONTINUOUS
 0
LAYER
 2
OPERACJA_BOOLE_A.17
 70
64
 62
7
 6
CONTINUOUS
 0
LAYER
 2
SZE_CIAN.27
 70
64
 62
7
 6
CONTINUOUS
 0
LAYER
 2
SZE_CIAN.28
 70
64
 62
7
 6
CONTINUOUS
 0
LAYER
 2
SZE_CIAN.29
 70
64
 62
7
 6
CONTINUOUS
 0
LAYER
 2
EXTRUDE_NURBS.5
 70
64
 62
7
 6
CONTINUOUS
 0
LAYER
 2
ZAOKR_GLENIE.5
 70
64
 62
7
 6
CONTINUOUS
 0
LAYER
 2
ZAKO_CZENIE_2.5
 70
64
 62
7
 6
CONTINUOUS
 0
LAYER
 2
2.10
 70
64
 62
7
 6
CONTINUOUS
 0
LAYER
 2
2.11
 70
64
 62
7
 6
CONTINUOUS
 0
LAYER
 2
PODSTAWA
 70
64
 62
7
 6
CONTINUOUS
 0
LAYER
 2
CAP_1
 70
64
 62
7
 6
CONTINUOUS
 0
LAYER
 2
CAP_2
 70
64
 62
7
 6
CONTINUOUS
 0
ENDTAB
 0
ENDSEC
 0
SECTION
 2
BLOCKS
 0
ENDSEC
 0
SECTION
 2
ENTITIES
 0
POLYLINE
 8
SZE_CIAN
 66
1
 10
0.0
 20
0.0
 30
0.0
 70
64
 71
8
 72
2
 0
VERTEX
 8
SZE_CIAN
 10
2448.1612
 20
2839.3268
 30
-4.9444
 70
192
 0
VERTEX
 8
SZE_CIAN
 10
2448.1612
 20
2839.3268
 30
-4.9444
 70
192
 0
VERTEX
 8
SZE_CIAN
 10
2448.1612
 20
2839.3268
 30
-4.9444
 70
192
 0
VERTEX
 8
SZE_CIAN
 10
2460.416
 20
2834.572
 30
-6.9444
 70
192
 0
VERTEX
 8
SZE_CIAN
 10
2463.1612
 20
2813.346
 30
-4.9444
 70
192
 0
VERTEX
 8
SZE_CIAN
 10
2463.1612
 20
2813.346
 30
-4.9444
 70
192
 0
VERTEX
 8
SZE_CIAN
 10
2463.1612
 20
2813.346
 30
-4.9444
 70
192
 0
VERTEX
 8
SZE_CIAN
 10
2465.1708
 20
2826.3364
 30
-6.9444
 70
192
 0
VERTEX
 8
SZE_CIAN
 10
0
 20
0
 30
0
 70
128
 71
2
 72
1
 73
3
 74
4
 0
VERTEX
 8
SZE_CIAN
 10
0
 20
0
 30
0
 70
128
 71
6
 72
8
 73
7
 74
5
 0
SEQEND
 0
POLYLINE
 8
SZE_CIAN.1
 66
1
 10
0.0
 20
0.0
 30
0.0
 70
64
 71
6
 72
2
 0
VERTEX
 8
SZE_CIAN.1
 10
2460.416
 20
2834.572
 30
-6.9421
 70
192
 0
VERTEX
 8
SZE_CIAN.1
 10
2478.1612
 20
2839.3268
 30
-4.9418
 70
192
 0
VERTEX
 8
SZE_CIAN.1
 10
2448.1612
 20
2839.3268
 30
-4.9443
 70
192
 0
VERTEX
 8
SZE_CIAN.1
 10
2478.1612
 20
2839.3268
 30
-4.942
 70
192
 0
VERTEX
 8
SZE_CIAN.1
 10
2465.1708
 20
2826.3364
 30
-6.9421
 70
192
 0
VERTEX
 8
SZE_CIAN.1
 10
2463.1612
 20
2813.346
 30
-4.9443
 70
192
 0
VERTEX
 8
SZE_CIAN.1
 10
0
 20
0
 30
0
 70
128
 71
3
 72
1
 73
2
 74
4
 0
VERTEX
 8
SZE_CIAN.1
 10
0
 20
0
 30
0
 70
128
 71
6
 72
4
 73
2
 74
5
 0
SEQEND
 0
POLYLINE
 8
SZE_CIAN.2
 66
1
 10
0.0
 20
0.0
 30
0.0
 70
64
 71
4
 72
1
 0
VERTEX
 8
SZE_CIAN.2
 10
2463.1612
 20
2813.346
 30
-4.9444
 70
192
 0
VERTEX
 8
SZE_CIAN.2
 10
2463.1612
 20
2813.346
 30
-4.9443
 70
192
 0
VERTEX
 8
SZE_CIAN.2
 10
2465.1708
 20
2826.3364
 30
-4.9444
 70
192
 0
VERTEX
 8
SZE_CIAN.2
 10
2465.1708
 20
2826.3364
 30
-6.9456
 70
192
 0
VERTEX
 8
SZE_CIAN.2
 10
0
 20
0
 30
0
 70
128
 71
2
 72
1
 73
3
 74
4
 0
SEQEND
 0
POLYLINE
 8
SZE_CIAN.3
 66
1
 10
0.0
 20
0.0
 30
0.0
 70
64
 71
4
 72
1
 0
VERTEX
 8
SZE_CIAN.3
 10
2448.1612
 20
2839.3268
 30
-4.9444
 70
192
 0
VERTEX
 8
SZE_CIAN.3
 10
2448.1612
 20
2839.3268
 30
-4.9444
 70
192
 0
VERTEX
 8
SZE_CIAN.3
 10
2460.416
 20
2834.572
 30
-4.9444
 70
192
 0
VERTEX
 8
SZE_CIAN.3
 10
2460.416
 20
2834.572
 30
-6.9456
 70
192
 0
VERTEX
 8
SZE_CIAN.3
 10
0
 20
0
 30
0
 70
128
 71
3
 72
1
 73
2
 74
4
 0
SEQEND
 0
POLYLINE
 8
SZE_CIAN.4
 66
1
 10
0.0
 20
0.0
 30
0.0
 70
64
 71
5
 72
3
 0
VERTEX
 8
SZE_CIAN.4
 10
2463.1612
 20
2813.346
 30
-4.9445
 70
192
 0
VERTEX
 8
SZE_CIAN.4
 10
2448.1612
 20
2839.3268
 30
-4.9445
 70
192
 0
VERTEX
 8
SZE_CIAN.4
 10
2460.416
 20
2834.572
 30
-6.9455
 70
192
 0
VERTEX
 8
SZE_CIAN.4
 10
2465.1708
 20
2826.3364
 30
-6.9456
 70
192
 0
VERTEX
 8
SZE_CIAN.4
 10
2455.6612
 20
2826.3364
 30
-4.945
 70
192
 0
VERTEX
 8
SZE_CIAN.4
 10
0
 20
0
 30
0
 70
128
 71
1
 72
4
 73
5
 74
5
 0
VERTEX
 8
SZE_CIAN.4
 10
0
 20
0
 30
0
 70
128
 71
5
 72
3
 73
2
 74
2
 0
VERTEX
 8
SZE_CIAN.4
 10
0
 20
0
 30
0
 70
128
 71
2
 72
1
 73
5
 74
5
 0
SEQEND
 0
POLYLINE
 8
EXTRUDE_NURBS
 66
1
 10
0.0
 20
0.0
 30
0.0
 70
64
 71
6
 72
2
 0
VERTEX
 8
EXTRUDE_NURBS
 10
2455.6612
 20
2826.3364
 30
-4.9456
 70
192
 0
VERTEX
 8
EXTRUDE_NURBS
 10
2455.6612
 20
2826.3364
 30
-4.9456
 70
192
 0
VERTEX
 8
EXTRUDE_NURBS
 10
2460.416
 20
2834.572
 30
-4.9444
 70
192
 0
VERTEX
 8
EXTRUDE_NURBS
 10
2465.1708
 20
2826.3364
 30
-4.9444
 70
192
 0
VERTEX
 8
EXTRUDE_NURBS
 10
2465.1708
 20
2826.3364
 30
-6.9456
 70
192
 0
VERTEX
 8
EXTRUDE_NURBS
 10
2460.416
 20
2834.572
 30
-6.9456
 70
192
 0
VERTEX
 8
EXTRUDE_NURBS
 10
0
 20
0
 30
0
 70
128
 71
3
 72
6
 73
2
 74
1
 0
VERTEX
 8
EXTRUDE_NURBS
 10
0
 20
0
 30
0
 70
128
 71
5
 72
4
 73
1
 74
2
 0
SEQEND
 0
POLYLINE
 8
2
 66
1
 10
0.0
 20
0.0
 30
0.0
 70
64
 71
4
 72
1
 0
VERTEX
 8
2
 10
2478.1612
 20
2839.3268
 30
-4.9456
 70
192
 0
VERTEX
 8
2
 10
2455.6612
 20
2826.3364
 30
-4.9456
 70
192
 0
VERTEX
 8
2
 10
2478.1612
 20
2839.3268
 30
-4.9456
 70
192
 0
VERTEX
 8
2
 10
2460.416
 20
2834.572
 30
-6.9456
 70
192
 0
VERTEX
 8
2
 10
0
 20
0
 30
0
 70
128
 71
3
 72
4
 73
2
 74
1
 0
SEQEND
 0
POLYLINE
 8
2.1
 66
1
 10
0.0
 20
0.0
 30
0.0
 70
64
 71
4
 72
1
 0
VERTEX
 8
2.1
 10
2478.1612
 20
2839.3268
 30
-4.9456
 70
192
 0
VERTEX
 8
2.1
 10
2478.1612
 20
2839.3268
 30
-4.9456
 70
192
 0
VERTEX
 8
2.1
 10
2455.6612
 20
2826.3364
 30
-4.9456
 70
192
 0
VERTEX
 8
2.1
 10
2465.1708
 20
2826.3364
 30
-6.9456
 70
192
 0
VERTEX
 8
2.1
 10
0
 20
0
 30
0
 70
128
 71
3
 72
4
 73
2
 74
1
 0
SEQEND
 0
POLYLINE
 8
SZE_CIAN.5
 66
1
 10
0.0
 20
0.0
 30
0.0
 70
64
 71
8
 72
2
 0
VERTEX
 8
SZE_CIAN.5
 10
2508.1611
 20
2839.3269
 30
-4.9444
 70
192
 0
VERTEX
 8
SZE_CIAN.5
 10
2508.1611
 20
2839.3269
 30
-4.9444
 70
192
 0
VERTEX
 8
SZE_CIAN.5
 10
2508.1611
 20
2839.3269
 30
-4.9444
 70
192
 0
VERTEX
 8
SZE_CIAN.5
 10
2495.9063
 20
2844.0817
 30
-6.9444
 70
192
 0
VERTEX
 8
SZE_CIAN.5
 10
2493.1611
 20
2865.3076
 30
-4.9444
 70
192
 0
VERTEX
 8
SZE_CIAN.5
 10
2493.1611
 20
2865.3076
 30
-4.9444
 70
192
 0
VERTEX
 8
SZE_CIAN.5
 10
2493.1611
 20
2865.3076
 30
-4.9444
 70
192
 0
VERTEX
 8
SZE_CIAN.5
 10
2491.1515
 20
2852.3172
 30
-6.9444
 70
192
 0
VERTEX
 8
SZE_CIAN.5
 10
0
 20
0
 30
0
 70
128
 71
2
 72
1
 73
3
 74
4
 0
VERTEX
 8
SZE_CIAN.5
 10
0
 20
0
 30
0
 70
128
 71
6
 72
8
 73
7
 74
5
 0
SEQEND
 0
POLYLINE
 8
SZE_CIAN.6
 66
1
 10
0.0
 20
0.0
 30
0.0
 70
64
 71
6
 72
2
 0
VERTEX
 8
SZE_CIAN.6
 10
2495.9063
 20
2844.0817
 30
-6.9421
 70
192
 0
VERTEX
 8
SZE_CIAN.6
 10
2478.1611
 20
2839.3268
 30
-4.9418
 70
192
 0
VERTEX
 8
SZE_CIAN.6
 10
2508.1611
 20
2839.3269
 30
-4.9443
 70
192
 0
VERTEX
 8
SZE_CIAN.6
 10
2478.1611
 20
2839.3268
 30
-4.942
 70
192
 0
VERTEX
 8
SZE_CIAN.6
 10
2491.1515
 20
2852.3172
 30
-6.9421
 70
192
 0
VERTEX
 8
SZE_CIAN.6
 10
2493.1611
 20
2865.3076
 30
-4.9443
 70
192
 0
VERTEX
 8
SZE_CIAN.6
 10
0
 20
0
 30
0
 70
128
 71
3
 72
1
 73
2
 74
4
 0
VERTEX
 8
SZE_CIAN.6
 10
0
 20
0
 30
0
 70
128
 71
6
 72
4
 73
2
 74
5
 0
SEQEND
 0
POLYLINE
 8
SZE_CIAN.7
 66
1
 10
0.0
 20
0.0
 30
0.0
 70
64
 71
4
 72
1
 0
VERTEX
 8
SZE_CIAN.7
 10
2493.1611
 20
2865.3076
 30
-4.9444
 70
192
 0
VERTEX
 8
SZE_CIAN.7
 10
2493.1611
 20
2865.3076
 30
-4.9443
 70
192
 0
VERTEX
 8
SZE_CIAN.7
 10
2491.1515
 20
2852.3172
 30
-4.9444
 70
192
 0
VERTEX
 8
SZE_CIAN.7
 10
2491.1515
 20
2852.3172
 30
-6.9456
 70
192
 0
VERTEX
 8
SZE_CIAN.7
 10
0
 20
0
 30
0
 70
128
 71
2
 72
1
 73
3
 74
4
 0
SEQEND
 0
POLYLINE
 8
SZE_CIAN.8
 66
1
 10
0.0
 20
0.0
 30
0.0
 70
64
 71
4
 72
1
 0
VERTEX
 8
SZE_CIAN.8
 10
2508.1611
 20
2839.3269
 30
-4.9444
 70
192
 0
VERTEX
 8
SZE_CIAN.8
 10
2508.1611
 20
2839.3269
 30
-4.9444
 70
192
 0
VERTEX
 8
SZE_CIAN.8
 10
2495.9063
 20
2844.0817
 30
-4.9444
 70
192
 0
VERTEX
 8
SZE_CIAN.8
 10
2495.9063
 20
2844.0817
 30
-6.9456
 70
192
 0
VERTEX
 8
SZE_CIAN.8
 10
0
 20
0
 30
0
 70
128
 71
3
 72
1
 73
2
 74
4
 0
SEQEND
 0
POLYLINE
 8
SZE_CIAN.9
 66
1
 10
0.0
 20
0.0
 30
0.0
 70
64
 71
5
 72
3
 0
VERTEX
 8
SZE_CIAN.9
 10
2493.1611
 20
2865.3076
 30
-4.9445
 70
192
 0
VERTEX
 8
SZE_CIAN.9
 10
2508.1611
 20
2839.3269
 30
-4.9445
 70
192
 0
VERTEX
 8
SZE_CIAN.9
 10
2495.9063
 20
2844.0817
 30
-6.9455
 70
192
 0
VERTEX
 8
SZE_CIAN.9
 10
2491.1515
 20
2852.3172
 30
-6.9456
 70
192
 0
VERTEX
 8
SZE_CIAN.9
 10
2500.6611
 20
2852.3172
 30
-4.945
 70
192
 0
VERTEX
 8
SZE_CIAN.9
 10
0
 20
0
 30
0
 70
128
 71
1
 72
4
 73
5
 74
5
 0
VERTEX
 8
SZE_CIAN.9
 10
0
 20
0
 30
0
 70
128
 71
5
 72
3
 73
2
 74
2
 0
VERTEX
 8
SZE_CIAN.9
 10
0
 20
0
 30
0
 70
128
 71
2
 72
1
 73
5
 74
5
 0
SEQEND
 0
POLYLINE
 8
EXTRUDE_NURBS.1
 66
1
 10
0.0
 20
0.0
 30
0.0
 70
64
 71
6
 72
2
 0
VERTEX
 8
EXTRUDE_NURBS.1
 10
2500.6611
 20
2852.3172
 30
-4.9456
 70
192
 0
VERTEX
 8
EXTRUDE_NURBS.1
 10
2500.6611
 20
2852.3172
 30
-4.9456
 70
192
 0
VERTEX
 8
EXTRUDE_NURBS.1
 10
2495.9063
 20
2844.0817
 30
-4.9444
 70
192
 0
VERTEX
 8
EXTRUDE_NURBS.1
 10
2491.1515
 20
2852.3172
 30
-4.9444
 70
192
 0
VERTEX
 8
EXTRUDE_NURBS.1
 10
2491.1515
 20
2852.3172
 30
-6.9456
 70
192
 0
VERTEX
 8
EXTRUDE_NURBS.1
 10
2495.9063
 20
2844.0817
 30
-6.9456
 70
192
 0
VERTEX
 8
EXTRUDE_NURBS.1
 10
0
 20
0
 30
0
 70
128
 71
3
 72
6
 73
2
 74
1
 0
VERTEX
 8
EXTRUDE_NURBS.1
 10
0
 20
0
 30
0
 70
128
 71
5
 72
4
 73
1
 74
2
 0
SEQEND
 0
POLYLINE
 8
2.2
 66
1
 10
0.0
 20
0.0
 30
0.0
 70
64
 71
4
 72
1
 0
VERTEX
 8
2.2
 10
2478.1611
 20
2839.3269
 30
-4.9456
 70
192
 0
VERTEX
 8
2.2
 10
2500.6611
 20
2852.3172
 30
-4.9456
 70
192
 0
VERTEX
 8
2.2
 10
2478.1611
 20
2839.3269
 30
-4.9456
 70
192
 0
VERTEX
 8
2.2
 10
2495.9063
 20
2844.0817
 30
-6.9456
 70
192
 0
VERTEX
 8
2.2
 10
0
 20
0
 30
0
 70
128
 71
3
 72
4
 73
2
 74
1
 0
SEQEND
 0
POLYLINE
 8
2.3
 66
1
 10
0.0
 20
0.0
 30
0.0
 70
64
 71
4
 72
1
 0
VERTEX
 8
2.3
 10
2478.1611
 20
2839.3269
 30
-4.9456
 70
192
 0
VERTEX
 8
2.3
 10
2478.1611
 20
2839.3269
 30
-4.9456
 70
192
 0
VERTEX
 8
2.3
 10
2500.6611
 20
2852.3172
 30
-4.9456
 70
192
 0
VERTEX
 8
2.3
 10
2491.1515
 20
2852.3172
 30
-6.9456
 70
192
 0
VERTEX
 8
2.3
 10
0
 20
0
 30
0
 70
128
 71
3
 72
4
 73
2
 74
1
 0
SEQEND
 0
POLYLINE
 8
SZE_CIAN.10
 66
1
 10
0.0
 20
0.0
 30
0.0
 70
64
 71
8
 72
2
 0
VERTEX
 8
SZE_CIAN.10
 10
2463.1611
 20
2865.3075
 30
-4.9444
 70
192
 0
VERTEX
 8
SZE_CIAN.10
 10
2463.1611
 20
2865.3075
 30
-4.9444
 70
192
 0
VERTEX
 8
SZE_CIAN.10
 10
2463.1611
 20
2865.3075
 30
-4.9444
 70
192
 0
VERTEX
 8
SZE_CIAN.10
 10
2465.1708
 20
2852.3171
 30
-6.9444
 70
192
 0
VERTEX
 8
SZE_CIAN.10
 10
2448.1611
 20
2839.3268
 30
-4.9444
 70
192
 0
VERTEX
 8
SZE_CIAN.10
 10
2448.1611
 20
2839.3268
 30
-4.9444
 70
192
 0
VERTEX
 8
SZE_CIAN.10
 10
2448.1611
 20
2839.3268
 30
-4.9444
 70
192
 0
VERTEX
 8
SZE_CIAN.10
 10
2460.4159
 20
2844.0816
 30
-6.9444
 70
192
 0
VERTEX
 8
SZE_CIAN.10
 10
0
 20
0
 30
0
 70
128
 71
2
 72
1
 73
3
 74
4
 0
VERTEX
 8
SZE_CIAN.10
 10
0
 20
0
 30
0
 70
128
 71
6
 72
8
 73
7
 74
5
 0
SEQEND
 0
POLYLINE
 8
SZE_CIAN.11
 66
1
 10
0.0
 20
0.0
 30
0.0
 70
64
 71
6
 72
2
 0
VERTEX
 8
SZE_CIAN.11
 10
2465.1708
 20
2852.3171
 30
-6.9421
 70
192
 0
VERTEX
 8
SZE_CIAN.11
 10
2478.1611
 20
2839.3268
 30
-4.9418
 70
192
 0
VERTEX
 8
SZE_CIAN.11
 10
2463.1611
 20
2865.3075
 30
-4.9443
 70
192
 0
VERTEX
 8
SZE_CIAN.11
 10
2478.1611
 20
2839.3268
 30
-4.942
 70
192
 0
VERTEX
 8
SZE_CIAN.11
 10
2460.4159
 20
2844.0816
 30
-6.9421
 70
192
 0
VERTEX
 8
SZE_CIAN.11
 10
2448.1611
 20
2839.3268
 30
-4.9443
 70
192
 0
VERTEX
 8
SZE_CIAN.11
 10
0
 20
0
 30
0
 70
128
 71
3
 72
1
 73
2
 74
4
 0
VERTEX
 8
SZE_CIAN.11
 10
0
 20
0
 30
0
 70
128
 71
6
 72
4
 73
2
 74
5
 0
SEQEND
 0
POLYLINE
 8
SZE_CIAN.12
 66
1
 10
0.0
 20
0.0
 30
0.0
 70
64
 71
4
 72
1
 0
VERTEX
 8
SZE_CIAN.12
 10
2448.1611
 20
2839.3268
 30
-4.9444
 70
192
 0
VERTEX
 8
SZE_CIAN.12
 10
2448.1611
 20
2839.3268
 30
-4.9443
 70
192
 0
VERTEX
 8
SZE_CIAN.12
 10
2460.4159
 20
2844.0816
 30
-4.9444
 70
192
 0
VERTEX
 8
SZE_CIAN.12
 10
2460.4159
 20
2844.0816
 30
-6.9456
 70
192
 0
VERTEX
 8
SZE_CIAN.12
 10
0
 20
0
 30
0
 70
128
 71
2
 72
1
 73
3
 74
4
 0
SEQEND
 0
POLYLINE
 8
SZE_CIAN.13
 66
1
 10
0.0
 20
0.0
 30
0.0
 70
64
 71
4
 72
1
 0
VERTEX
 8
SZE_CIAN.13
 10
2463.1611
 20
2865.3075
 30
-4.9444
 70
192
 0
VERTEX
 8
SZE_CIAN.13
 10
2463.1611
 20
2865.3075
 30
-4.9444
 70
192
 0
VERTEX
 8
SZE_CIAN.13
 10
2465.1708
 20
2852.3171
 30
-4.9444
 70
192
 0
VERTEX
 8
SZE_CIAN.13
 10
2465.1708
 20
2852.3171
 30
-6.9456
 70
192
 0
VERTEX
 8
SZE_CIAN.13
 10
0
 20
0
 30
0
 70
128
 71
3
 72
1
 73
2
 74
4
 0
SEQEND
 0
POLYLINE
 8
SZE_CIAN.14
 66
1
 10
0.0
 20
0.0
 30
0.0
 70
64
 71
5
 72
3
 0
VERTEX
 8
SZE_CIAN.14
 10
2448.1611
 20
2839.3268
 30
-4.9445
 70
192
 0
VERTEX
 8
SZE_CIAN.14
 10
2463.1611
 20
2865.3075
 30
-4.9445
 70
192
 0
VERTEX
 8
SZE_CIAN.14
 10
2465.1708
 20
2852.3171
 30
-6.9455
 70
192
 0
VERTEX
 8
SZE_CIAN.14
 10
2460.4159
 20
2844.0816
 30
-6.9456
 70
192
 0
VERTEX
 8
SZE_CIAN.14
 10
2455.6611
 20
2852.3171
 30
-4.945
 70
192
 0
VERTEX
 8
SZE_CIAN.14
 10
0
 20
0
 30
0
 70
128
 71
1
 72
4
 73
5
 74
5
 0
VERTEX
 8
SZE_CIAN.14
 10
0
 20
0
 30
0
 70
128
 71
5
 72
3
 73
2
 74
2
 0
VERTEX
 8
SZE_CIAN.14
 10
0
 20
0
 30
0
 70
128
 71
2
 72
1
 73
5
 74
5
 0
SEQEND
 0
POLYLINE
 8
EXTRUDE_NURBS.2
 66
1
 10
0.0
 20
0.0
 30
0.0
 70
64
 71
6
 72
2
 0
VERTEX
 8
EXTRUDE_NURBS.2
 10
2455.6611
 20
2852.3171
 30
-4.9456
 70
192
 0
VERTEX
 8
EXTRUDE_NURBS.2
 10
2455.6611
 20
2852.3171
 30
-4.9456
 70
192
 0
VERTEX
 8
EXTRUDE_NURBS.2
 10
2465.1708
 20
2852.3171
 30
-4.9444
 70
192
 0
VERTEX
 8
EXTRUDE_NURBS.2
 10
2460.4159
 20
2844.0816
 30
-4.9444
 70
192
 0
VERTEX
 8
EXTRUDE_NURBS.2
 10
2460.4159
 20
2844.0816
 30
-6.9456
 70
192
 0
VERTEX
 8
EXTRUDE_NURBS.2
 10
2465.1708
 20
2852.3171
 30
-6.9456
 70
192
 0
VERTEX
 8
EXTRUDE_NURBS.2
 10
0
 20
0
 30
0
 70
128
 71
3
 72
6
 73
2
 74
1
 0
VERTEX
 8
EXTRUDE_NURBS.2
 10
0
 20
0
 30
0
 70
128
 71
5
 72
4
 73
1
 74
2
 0
SEQEND
 0
POLYLINE
 8
2.4
 66
1
 10
0.0
 20
0.0
 30
0.0
 70
64
 71
4
 72
1
 0
VERTEX
 8
2.4
 10
2478.1611
 20
2839.3268
 30
-4.9456
 70
192
 0
VERTEX
 8
2.4
 10
2455.6611
 20
2852.3171
 30
-4.9456
 70
192
 0
VERTEX
 8
2.4
 10
2478.1611
 20
2839.3268
 30
-4.9456
 70
192
 0
VERTEX
 8
2.4
 10
2465.1708
 20
2852.3171
 30
-6.9456
 70
192
 0
VERTEX
 8
2.4
 10
0
 20
0
 30
0
 70
128
 71
3
 72
4
 73
2
 74
1
 0
SEQEND
 0
POLYLINE
 8
2.5
 66
1
 10
0.0
 20
0.0
 30
0.0
 70
64
 71
4
 72
1
 0
VERTEX
 8
2.5
 10
2478.1611
 20
2839.3268
 30
-4.9456
 70
192
 0
VERTEX
 8
2.5
 10
2478.1611
 20
2839.3268
 30
-4.9456
 70
192
 0
VERTEX
 8
2.5
 10
2455.6611
 20
2852.3171
 30
-4.9456
 70
192
 0
VERTEX
 8
2.5
 10
2460.4159
 20
2844.0816
 30
-6.9456
 70
192
 0
VERTEX
 8
2.5
 10
0
 20
0
 30
0
 70
128
 71
3
 72
4
 73
2
 74
1
 0
SEQEND
 0
POLYLINE
 8
SZE_CIAN.15
 66
1
 10
0.0
 20
0.0
 30
0.0
 70
64
 71
8
 72
2
 0
VERTEX
 8
SZE_CIAN.15
 10
2493.1611
 20
2813.3461
 30
-4.9444
 70
192
 0
VERTEX
 8
SZE_CIAN.15
 10
2493.1611
 20
2813.3461
 30
-4.9444
 70
192
 0
VERTEX
 8
SZE_CIAN.15
 10
2493.1611
 20
2813.3461
 30
-4.9444
 70
192
 0
VERTEX
 8
SZE_CIAN.15
 10
2491.1515
 20
2826.3365
 30
-6.9444
 70
192
 0
VERTEX
 8
SZE_CIAN.15
 10
2508.1611
 20
2839.3269
 30
-4.9444
 70
192
 0
VERTEX
 8
SZE_CIAN.15
 10
2508.1611
 20
2839.3269
 30
-4.9444
 70
192
 0
VERTEX
 8
SZE_CIAN.15
 10
2508.1611
 20
2839.3269
 30
-4.9444
 70
192
 0
VERTEX
 8
SZE_CIAN.15
 10
2495.9063
 20
2834.5721
 30
-6.9444
 70
192
 0
VERTEX
 8
SZE_CIAN.15
 10
0
 20
0
 30
0
 70
128
 71
2
 72
1
 73
3
 74
4
 0
VERTEX
 8
SZE_CIAN.15
 10
0
 20
0
 30
0
 70
128
 71
6
 72
8
 73
7
 74
5
 0
SEQEND
 0
POLYLINE
 8
SZE_CIAN.16
 66
1
 10
0.0
 20
0.0
 30
0.0
 70
64
 71
6
 72
2
 0
VERTEX
 8
SZE_CIAN.16
 10
2491.1515
 20
2826.3365
 30
-6.9421
 70
192
 0
VERTEX
 8
SZE_CIAN.16
 10
2478.1611
 20
2839.3269
 30
-4.9418
 70
192
 0
VERTEX
 8
SZE_CIAN.16
 10
2493.1611
 20
2813.3461
 30
-4.9443
 70
192
 0
VERTEX
 8
SZE_CIAN.16
 10
2478.1611
 20
2839.3269
 30
-4.942
 70
192
 0
VERTEX
 8
SZE_CIAN.16
 10
2495.9063
 20
2834.5721
 30
-6.9421
 70
192
 0
VERTEX
 8
SZE_CIAN.16
 10
2508.1611
 20
2839.3269
 30
-4.9443
 70
192
 0
VERTEX
 8
SZE_CIAN.16
 10
0
 20
0
 30
0
 70
128
 71
3
 72
1
 73
2
 74
4
 0
VERTEX
 8
SZE_CIAN.16
 10
0
 20
0
 30
0
 70
128
 71
6
 72
4
 73
2
 74
5
 0
SEQEND
 0
POLYLINE
 8
SZE_CIAN.17
 66
1
 10
0.0
 20
0.0
 30
0.0
 70
64
 71
4
 72
1
 0
VERTEX
 8
SZE_CIAN.17
 10
2508.1611
 20
2839.3269
 30
-4.9444
 70
192
 0
VERTEX
 8
SZE_CIAN.17
 10
2508.1611
 20
2839.3269
 30
-4.9443
 70
192
 0
VERTEX
 8
SZE_CIAN.17
 10
2495.9063
 20
2834.5721
 30
-4.9444
 70
192
 0
VERTEX
 8
SZE_CIAN.17
 10
2495.9063
 20
2834.5721
 30
-6.9456
 70
192
 0
VERTEX
 8
SZE_CIAN.17
 10
0
 20
0
 30
0
 70
128
 71
2
 72
1
 73
3
 74
4
 0
SEQEND
 0
POLYLINE
 8
SZE_CIAN.18
 66
1
 10
0.0
 20
0.0
 30
0.0
 70
64
 71
4
 72
1
 0
VERTEX
 8
SZE_CIAN.18
 10
2493.1611
 20
2813.3461
 30
-4.9444
 70
192
 0
VERTEX
 8
SZE_CIAN.18
 10
2493.1611
 20
2813.3461
 30
-4.9444
 70
192
 0
VERTEX
 8
SZE_CIAN.18
 10
2491.1515
 20
2826.3365
 30
-4.9444
 70
192
 0
VERTEX
 8
SZE_CIAN.18
 10
2491.1515
 20
2826.3365
 30
-6.9456
 70
192
 0
VERTEX
 8
SZE_CIAN.18
 10
0
 20
0
 30
0
 70
128
 71
3
 72
1
 73
2
 74
4
 0
SEQEND
 0
POLYLINE
 8
SZE_CIAN.19
 66
1
 10
0.0
 20
0.0
 30
0.0
 70
64
 71
5
 72
3
 0
VERTEX
 8
SZE_CIAN.19
 10
2508.1611
 20
2839.3269
 30
-4.9445
 70
192
 0
VERTEX
 8
SZE_CIAN.19
 10
2493.1611
 20
2813.3461
 30
-4.9445
 70
192
 0
VERTEX
 8
SZE_CIAN.19
 10
2491.1515
 20
2826.3365
 30
-6.9455
 70
192
 0
VERTEX
 8
SZE_CIAN.19
 10
2495.9063
 20
2834.5721
 30
-6.9456
 70
192
 0
VERTEX
 8
SZE_CIAN.19
 10
2500.6611
 20
2826.3365
 30
-4.945
 70
192
 0
VERTEX
 8
SZE_CIAN.19
 10
0
 20
0
 30
0
 70
128
 71
1
 72
4
 73
5
 74
5
 0
VERTEX
 8
SZE_CIAN.19
 10
0
 20
0
 30
0
 70
128
 71
5
 72
3
 73
2
 74
2
 0
VERTEX
 8
SZE_CIAN.19
 10
0
 20
0
 30
0
 70
128
 71
2
 72
1
 73
5
 74
5
 0
SEQEND
 0
POLYLINE
 8
EXTRUDE_NURBS.3
 66
1
 10
0.0
 20
0.0
 30
0.0
 70
64
 71
6
 72
2
 0
VERTEX
 8
EXTRUDE_NURBS.3
 10
2500.6611
 20
2826.3365
 30
-4.9456
 70
192
 0
VERTEX
 8
EXTRUDE_NURBS.3
 10
2500.6611
 20
2826.3365
 30
-4.9456
 70
192
 0
VERTEX
 8
EXTRUDE_NURBS.3
 10
2491.1515
 20
2826.3365
 30
-4.9444
 70
192
 0
VERTEX
 8
EXTRUDE_NURBS.3
 10
2495.9063
 20
2834.5721
 30
-4.9444
 70
192
 0
VERTEX
 8
EXTRUDE_NURBS.3
 10
2495.9063
 20
2834.5721
 30
-6.9456
 70
192
 0
VERTEX
 8
EXTRUDE_NURBS.3
 10
2491.1515
 20
2826.3365
 30
-6.9456
 70
192
 0
VERTEX
 8
EXTRUDE_NURBS.3
 10
0
 20
0
 30
0
 70
128
 71
3
 72
6
 73
2
 74
1
 0
VERTEX
 8
EXTRUDE_NURBS.3
 10
0
 20
0
 30
0
 70
128
 71
5
 72
4
 73
1
 74
2
 0
SEQEND
 0
POLYLINE
 8
2.6
 66
1
 10
0.0
 20
0.0
 30
0.0
 70
64
 71
4
 72
1
 0
VERTEX
 8
2.6
 10
2478.1611
 20
2839.3269
 30
-4.9456
 70
192
 0
VERTEX
 8
2.6
 10
2500.6611
 20
2826.3365
 30
-4.9456
 70
192
 0
VERTEX
 8
2.6
 10
2478.1611
 20
2839.3269
 30
-4.9456
 70
192
 0
VERTEX
 8
2.6
 10
2491.1515
 20
2826.3365
 30
-6.9456
 70
192
 0
VERTEX
 8
2.6
 10
0
 20
0
 30
0
 70
128
 71
3
 72
4
 73
2
 74
1
 0
SEQEND
 0
POLYLINE
 8
2.7
 66
1
 10
0.0
 20
0.0
 30
0.0
 70
64
 71
4
 72
1
 0
VERTEX
 8
2.7
 10
2478.1611
 20
2839.3269
 30
-4.9456
 70
192
 0
VERTEX
 8
2.7
 10
2478.1611
 20
2839.3269
 30
-4.9456
 70
192
 0
VERTEX
 8
2.7
 10
2500.6611
 20
2826.3365
 30
-4.9456
 70
192
 0
VERTEX
 8
2.7
 10
2495.9063
 20
2834.5721
 30
-6.9456
 70
192
 0
VERTEX
 8
2.7
 10
0
 20
0
 30
0
 70
128
 71
3
 72
4
 73
2
 74
1
 0
SEQEND
 0
POLYLINE
 8
SZE_CIAN.20
 66
1
 10
0.0
 20
0.0
 30
0.0
 70
64
 71
8
 72
2
 0
VERTEX
 8
SZE_CIAN.20
 10
2493.1611
 20
2865.3076
 30
-4.9444
 70
192
 0
VERTEX
 8
SZE_CIAN.20
 10
2493.1611
 20
2865.3076
 30
-4.9444
 70
192
 0
VERTEX
 8
SZE_CIAN.20
 10
2493.1611
 20
2865.3076
 30
-4.9444
 70
192
 0
VERTEX
 8
SZE_CIAN.20
 10
2482.9159
 20
2857.072
 30
-6.9444
 70
192
 0
VERTEX
 8
SZE_CIAN.20
 10
2463.1611
 20
2865.3076
 30
-4.9444
 70
192
 0
VERTEX
 8
SZE_CIAN.20
 10
2463.1611
 20
2865.3076
 30
-4.9444
 70
192
 0
VERTEX
 8
SZE_CIAN.20
 10
2463.1611
 20
2865.3076
 30
-4.9444
 70
192
 0
VERTEX
 8
SZE_CIAN.20
 10
2473.4063
 20
2857.072
 30
-6.9444
 70
192
 0
VERTEX
 8
SZE_CIAN.20
 10
0
 20
0
 30
0
 70
128
 71
2
 72
1
 73
3
 74
4
 0
VERTEX
 8
SZE_CIAN.20
 10
0
 20
0
 30
0
 70
128
 71
6
 72
8
 73
7
 74
5
 0
SEQEND
 0
POLYLINE
 8
SZE_CIAN.21
 66
1
 10
0.0
 20
0.0
 30
0.0
 70
64
 71
6
 72
2
 0
VERTEX
 8
SZE_CIAN.21
 10
2482.9159
 20
2857.072
 30
-6.9421
 70
192
 0
VERTEX
 8
SZE_CIAN.21
 10
2478.1611
 20
2839.3268
 30
-4.9418
 70
192
 0
VERTEX
 8
SZE_CIAN.21
 10
2493.1611
 20
2865.3076
 30
-4.9443
 70
192
 0
VERTEX
 8
SZE_CIAN.21
 10
2478.1611
 20
2839.3268
 30
-4.942
 70
192
 0
VERTEX
 8
SZE_CIAN.21
 10
2473.4063
 20
2857.072
 30
-6.9421
 70
192
 0
VERTEX
 8
SZE_CIAN.21
 10
2463.1611
 20
2865.3076
 30
-4.9443
 70
192
 0
VERTEX
 8
SZE_CIAN.21
 10
0
 20
0
 30
0
 70
128
 71
3
 72
1
 73
2
 74
4
 0
VERTEX
 8
SZE_CIAN.21
 10
0
 20
0
 30
0
 70
128
 71
6
 72
4
 73
2
 74
5
 0
SEQEND
 0
POLYLINE
 8
SZE_CIAN.22
 66
1
 10
0.0
 20
0.0
 30
0.0
 70
64
 71
4
 72
1
 0
VERTEX
 8
SZE_CIAN.22
 10
2463.1611
 20
2865.3076
 30
-4.9444
 70
192
 0
VERTEX
 8
SZE_CIAN.22
 10
2463.1611
 20
2865.3076
 30
-4.9443
 70
192
 0
VERTEX
 8
SZE_CIAN.22
 10
2473.4063
 20
2857.072
 30
-4.9444
 70
192
 0
VERTEX
 8
SZE_CIAN.22
 10
2473.4063
 20
2857.072
 30
-6.9456
 70
192
 0
VERTEX
 8
SZE_CIAN.22
 10
0
 20
0
 30
0
 70
128
 71
2
 72
1
 73
3
 74
4
 0
SEQEND
 0
POLYLINE
 8
SZE_CIAN.23
 66
1
 10
0.0
 20
0.0
 30
0.0
 70
64
 71
4
 72
1
 0
VERTEX
 8
SZE_CIAN.23
 10
2493.1611
 20
2865.3076
 30
-4.9444
 70
192
 0
VERTEX
 8
SZE_CIAN.23
 10
2493.1611
 20
2865.3076
 30
-4.9444
 70
192
 0
VERTEX
 8
SZE_CIAN.23
 10
2482.9159
 20
2857.072
 30
-4.9444
 70
192
 0
VERTEX
 8
SZE_CIAN.23
 10
2482.9159
 20
2857.072
 30
-6.9456
 70
192
 0
VERTEX
 8
SZE_CIAN.23
 10
0
 20
0
 30
0
 70
128
 71
3
 72
1
 73
2
 74
4
 0
SEQEND
 0
POLYLINE
 8
SZE_CIAN.24
 66
1
 10
0.0
 20
0.0
 30
0.0
 70
64
 71
5
 72
3
 0
VERTEX
 8
SZE_CIAN.24
 10
2463.1611
 20
2865.3076
 30
-4.9445
 70
192
 0
VERTEX
 8
SZE_CIAN.24
 10
2493.1611
 20
2865.3075
 30
-4.9445
 70
192
 0
VERTEX
 8
SZE_CIAN.24
 10
2482.9159
 20
2857.072
 30
-6.9455
 70
192
 0
VERTEX
 8
SZE_CIAN.24
 10
2473.4063
 20
2857.072
 30
-6.9456
 70
192
 0
VERTEX
 8
SZE_CIAN.24
 10
2478.1611
 20
2865.3076
 30
-4.945
 70
192
 0
VERTEX
 8
SZE_CIAN.24
 10
0
 20
0
 30
0
 70
128
 71
1
 72
4
 73
5
 74
5
 0
VERTEX
 8
SZE_CIAN.24
 10
0
 20
0
 30
0
 70
128
 71
5
 72
3
 73
2
 74
2
 0
VERTEX
 8
SZE_CIAN.24
 10
0
 20
0
 30
0
 70
128
 71
2
 72
1
 73
5
 74
5
 0
SEQEND
 0
POLYLINE
 8
EXTRUDE_NURBS.4
 66
1
 10
0.0
 20
0.0
 30
0.0
 70
64
 71
6
 72
2
 0
VERTEX
 8
EXTRUDE_NURBS.4
 10
2478.1611
 20
2865.3076
 30
-4.9456
 70
192
 0
VERTEX
 8
EXTRUDE_NURBS.4
 10
2478.1611
 20
2865.3076
 30
-4.9456
 70
192
 0
VERTEX
 8
EXTRUDE_NURBS.4
 10
2482.9159
 20
2857.072
 30
-4.9444
 70
192
 0
VERTEX
 8
EXTRUDE_NURBS.4
 10
2473.4063
 20
2857.072
 30
-4.9444
 70
192
 0
VERTEX
 8
EXTRUDE_NURBS.4
 10
2473.4063
 20
2857.072
 30
-6.9456
 70
192
 0
VERTEX
 8
EXTRUDE_NURBS.4
 10
2482.9159
 20
2857.072
 30
-6.9456
 70
192
 0
VERTEX
 8
EXTRUDE_NURBS.4
 10
0
 20
0
 30
0
 70
128
 71
3
 72
6
 73
2
 74
1
 0
VERTEX
 8
EXTRUDE_NURBS.4
 10
0
 20
0
 30
0
 70
128
 71
5
 72
4
 73
1
 74
2
 0
SEQEND
 0
POLYLINE
 8
2.8
 66
1
 10
0.0
 20
0.0
 30
0.0
 70
64
 71
4
 72
1
 0
VERTEX
 8
2.8
 10
2478.1611
 20
2839.3268
 30
-4.9456
 70
192
 0
VERTEX
 8
2.8
 10
2478.1611
 20
2865.3076
 30
-4.9456
 70
192
 0
VERTEX
 8
2.8
 10
2478.1611
 20
2839.3268
 30
-4.9456
 70
192
 0
VERTEX
 8
2.8
 10
2482.9159
 20
2857.072
 30
-6.9456
 70
192
 0
VERTEX
 8
2.8
 10
0
 20
0
 30
0
 70
128
 71
3
 72
4
 73
2
 74
1
 0
SEQEND
 0
POLYLINE
 8
2.9
 66
1
 10
0.0
 20
0.0
 30
0.0
 70
64
 71
4
 72
1
 0
VERTEX
 8
2.9
 10
2478.1611
 20
2839.3268
 30
-4.9456
 70
192
 0
VERTEX
 8
2.9
 10
2478.1611
 20
2839.3268
 30
-4.9456
 70
192
 0
VERTEX
 8
2.9
 10
2478.1611
 20
2865.3076
 30
-4.9456
 70
192
 0
VERTEX
 8
2.9
 10
2473.4063
 20
2857.072
 30
-6.9456
 70
192
 0
VERTEX
 8
2.9
 10
0
 20
0
 30
0
 70
128
 71
3
 72
4
 73
2
 74
1
 0
SEQEND
 0
POLYLINE
 8
SZE_CIAN.25
 66
1
 10
0.0
 20
0.0
 30
0.0
 70
64
 71
8
 72
2
 0
VERTEX
 8
SZE_CIAN.25
 10
2463.1612
 20
2813.3461
 30
-4.9444
 70
192
 0
VERTEX
 8
SZE_CIAN.25
 10
2463.1612
 20
2813.3461
 30
-4.9444
 70
192
 0
VERTEX
 8
SZE_CIAN.25
 10
2463.1612
 20
2813.3461
 30
-4.9444
 70
192
 0
VERTEX
 8
SZE_CIAN.25
 10
2473.4064
 20
2821.5817
 30
-6.9444
 70
192
 0
VERTEX
 8
SZE_CIAN.25
 10
2493.1612
 20
2813.3461
 30
-4.9444
 70
192
 0
VERTEX
 8
SZE_CIAN.25
 10
2493.1612
 20
2813.3461
 30
-4.9444
 70
192
 0
VERTEX
 8
SZE_CIAN.25
 10
2493.1612
 20
2813.3461
 30
-4.9444
 70
192
 0
VERTEX
 8
SZE_CIAN.25
 10
2482.916
 20
2821.5817
 30
-6.9444
 70
192
 0
VERTEX
 8
SZE_CIAN.25
 10
0
 20
0
 30
0
 70
128
 71
2
 72
1
 73
3
 74
4
 0
VERTEX
 8
SZE_CIAN.25
 10
0
 20
0
 30
0
 70
128
 71
6
 72
8
 73
7
 74
5
 0
SEQEND
 0
POLYLINE
 8
SZE_CIAN.26
 66
1
 10
0.0
 20
0.0
 30
0.0
 70
64
 71
6
 72
2
 0
VERTEX
 8
SZE_CIAN.26
 10
2473.4064
 20
2821.5817
 30
-6.9421
 70
192
 0
VERTEX
 8
SZE_CIAN.26
 10
2478.1612
 20
2839.3269
 30
-4.9418
 70
192
 0
VERTEX
 8
SZE_CIAN.26
 10
2463.1612
 20
2813.3461
 30
-4.9443
 70
192
 0
VERTEX
 8
SZE_CIAN.26
 10
2478.1612
 20
2839.3269
 30
-4.942
 70
192
 0
VERTEX
 8
SZE_CIAN.26
 10
2482.916
 20
2821.5817
 30
-6.9421
 70
192
 0
VERTEX
 8
SZE_CIAN.26
 10
2493.1612
 20
2813.3461
 30
-4.9443
 70
192
 0
VERTEX
 8
SZE_CIAN.26
 10
0
 20
0
 30
0
 70
128
 71
3
 72
1
 73
2
 74
4
 0
VERTEX
 8
SZE_CIAN.26
 10
0
 20
0
 30
0
 70
128
 71
6
 72
4
 73
2
 74
5
 0
SEQEND
 0
POLYLINE
 8
SZE_CIAN.27
 66
1
 10
0.0
 20
0.0
 30
0.0
 70
64
 71
4
 72
1
 0
VERTEX
 8
SZE_CIAN.27
 10
2493.1612
 20
2813.3461
 30
-4.9444
 70
192
 0
VERTEX
 8
SZE_CIAN.27
 10
2493.1612
 20
2813.3461
 30
-4.9443
 70
192
 0
VERTEX
 8
SZE_CIAN.27
 10
2482.916
 20
2821.5817
 30
-4.9444
 70
192
 0
VERTEX
 8
SZE_CIAN.27
 10
2482.916
 20
2821.5817
 30
-6.9456
 70
192
 0
VERTEX
 8
SZE_CIAN.27
 10
0
 20
0
 30
0
 70
128
 71
2
 72
1
 73
3
 74
4
 0
SEQEND
 0
POLYLINE
 8
SZE_CIAN.28
 66
1
 10
0.0
 20
0.0
 30
0.0
 70
64
 71
4
 72
1
 0
VERTEX
 8
SZE_CIAN.28
 10
2463.1612
 20
2813.3461
 30
-4.9444
 70
192
 0
VERTEX
 8
SZE_CIAN.28
 10
2463.1612
 20
2813.3461
 30
-4.9444
 70
192
 0
VERTEX
 8
SZE_CIAN.28
 10
2473.4064
 20
2821.5817
 30
-4.9444
 70
192
 0
VERTEX
 8
SZE_CIAN.28
 10
2473.4064
 20
2821.5817
 30
-6.9456
 70
192
 0
VERTEX
 8
SZE_CIAN.28
 10
0
 20
0
 30
0
 70
128
 71
3
 72
1
 73
2
 74
4
 0
SEQEND
 0
POLYLINE
 8
SZE_CIAN.29
 66
1
 10
0.0
 20
0.0
 30
0.0
 70
64
 71
5
 72
3
 0
VERTEX
 8
SZE_CIAN.29
 10
2493.1612
 20
2813.3461
 30
-4.9445
 70
192
 0
VERTEX
 8
SZE_CIAN.29
 10
2463.1612
 20
2813.3461
 30
-4.9445
 70
192
 0
VERTEX
 8
SZE_CIAN.29
 10
2473.4064
 20
2821.5817
 30
-6.9455
 70
192
 0
VERTEX
 8
SZE_CIAN.29
 10
2482.916
 20
2821.5817
 30
-6.9456
 70
192
 0
VERTEX
 8
SZE_CIAN.29
 10
2478.1612
 20
2813.3461
 30
-4.945
 70
192
 0
VERTEX
 8
SZE_CIAN.29
 10
0
 20
0
 30
0
 70
128
 71
1
 72
4
 73
5
 74
5
 0
VERTEX
 8
SZE_CIAN.29
 10
0
 20
0
 30
0
 70
128
 71
5
 72
3
 73
2
 74
2
 0
VERTEX
 8
SZE_CIAN.29
 10
0
 20
0
 30
0
 70
128
 71
2
 72
1
 73
5
 74
5
 0
SEQEND
 0
POLYLINE
 8
EXTRUDE_NURBS.5
 66
1
 10
0.0
 20
0.0
 30
0.0
 70
64
 71
6
 72
2
 0
VERTEX
 8
EXTRUDE_NURBS.5
 10
2478.1612
 20
2813.3461
 30
-4.9456
 70
192
 0
VERTEX
 8
EXTRUDE_NURBS.5
 10
2478.1612
 20
2813.3461
 30
-4.9456
 70
192
 0
VERTEX
 8
EXTRUDE_NURBS.5
 10
2473.4064
 20
2821.5817
 30
-4.9444
 70
192
 0
VERTEX
 8
EXTRUDE_NURBS.5
 10
2482.916
 20
2821.5817
 30
-4.9444
 70
192
 0
VERTEX
 8
EXTRUDE_NURBS.5
 10
2482.916
 20
2821.5817
 30
-6.9456
 70
192
 0
VERTEX
 8
EXTRUDE_NURBS.5
 10
2473.4064
 20
2821.5817
 30
-6.9456
 70
192
 0
VERTEX
 8
EXTRUDE_NURBS.5
 10
0
 20
0
 30
0
 70
128
 71
3
 72
6
 73
2
 74
1
 0
VERTEX
 8
EXTRUDE_NURBS.5
 10
0
 20
0
 30
0
 70
128
 71
5
 72
4
 73
1
 74
2
 0
SEQEND
 0
POLYLINE
 8
2.10
 66
1
 10
0.0
 20
0.0
 30
0.0
 70
64
 71
4
 72
1
 0
VERTEX
 8
2.10
 10
2478.1612
 20
2839.3269
 30
-4.9456
 70
192
 0
VERTEX
 8
2.10
 10
2478.1612
 20
2813.3461
 30
-4.9456
 70
192
 0
VERTEX
 8
2.10
 10
2478.1612
 20
2839.3269
 30
-4.9456
 70
192
 0
VERTEX
 8
2.10
 10
2473.4064
 20
2821.5817
 30
-6.9456
 70
192
 0
VERTEX
 8
2.10
 10
0
 20
0
 30
0
 70
128
 71
3
 72
4
 73
2
 74
1
 0
SEQEND
 0
POLYLINE
 8
2.11
 66
1
 10
0.0
 20
0.0
 30
0.0
 70
64
 71
4
 72
1
 0
VERTEX
 8
2.11
 10
2478.1612
 20
2839.3269
 30
-4.9456
 70
192
 0
VERTEX
 8
2.11
 10
2478.1612
 20
2839.3269
 30
-4.9456
 70
192
 0
VERTEX
 8
2.11
 10
2478.1612
 20
2813.3461
 30
-4.9456
 70
192
 0
VERTEX
 8
2.11
 10
2482.916
 20
2821.5817
 30
-6.9456
 70
192
 0
VERTEX
 8
2.11
 10
0
 20
0
 30
0
 70
128
 71
3
 72
4
 73
2
 74
1
 0
SEQEND
 0
POLYLINE
 8
PODSTAWA
 66
1
 10
0.0
 20
0.0
 30
0.0
 70
64
 71
12
 72
6
 0
VERTEX
 8
PODSTAWA
 10
2463.1611
 20
2813.346
 30
-3.9446
 70
192
 0
VERTEX
 8
PODSTAWA
 10
2493.1611
 20
2813.3459
 30
-3.9446
 70
192
 0
VERTEX
 8
PODSTAWA
 10
2508.161
 20
2839.3266
 30
-3.9446
 70
192
 0
VERTEX
 8
PODSTAWA
 10
2493.1612
 20
2865.3075
 30
-3.9446
 70
192
 0
VERTEX
 8
PODSTAWA
 10
2463.1612
 20
2865.3075
 30
-3.9446
 70
192
 0
VERTEX
 8
PODSTAWA
 10
2448.1611
 20
2839.3268
 30
-3.9446
 70
192
 0
VERTEX
 8
PODSTAWA
 10
2463.1611
 20
2813.346
 30
-4.9446
 70
192
 0
VERTEX
 8
PODSTAWA
 10
2493.1611
 20
2813.3459
 30
-4.9446
 70
192
 0
VERTEX
 8
PODSTAWA
 10
2508.161
 20
2839.3266
 30
-4.9446
 70
192
 0
VERTEX
 8
PODSTAWA
 10
2493.1612
 20
2865.3075
 30
-4.9446
 70
192
 0
VERTEX
 8
PODSTAWA
 10
2463.1612
 20
2865.3075
 30
-4.9446
 70
192
 0
VERTEX
 8
PODSTAWA
 10
2448.1611
 20
2839.3268
 30
-4.9446
 70
192
 0
VERTEX
 8
PODSTAWA
 10
0
 20
0
 30
0
 70
128
 71
1
 72
2
 73
8
 74
7
 0
VERTEX
 8
PODSTAWA
 10
0
 20
0
 30
0
 70
128
 71
2
 72
3
 73
9
 74
8
 0
VERTEX
 8
PODSTAWA
 10
0
 20
0
 30
0
 70
128
 71
3
 72
4
 73
10
 74
9
 0
VERTEX
 8
PODSTAWA
 10
0
 20
0
 30
0
 70
128
 71
4
 72
5
 73
11
 74
10
 0
VERTEX
 8
PODSTAWA
 10
0
 20
0
 30
0
 70
128
 71
5
 72
6
 73
12
 74
11
 0
VERTEX
 8
PODSTAWA
 10
0
 20
0
 30
0
 70
128
 71
6
 72
1
 73
7
 74
12
 0
SEQEND
 0
POLYLINE
 8
CAP_1
 66
1
 10
0.0
 20
0.0
 30
0.0
 70
64
 71
6
 72
4
 0
VERTEX
 8
CAP_1
 10
2463.1611
 20
2813.346
 30
-3.9446
 70
192
 0
VERTEX
 8
CAP_1
 10
2493.1611
 20
2813.3459
 30
-3.9446
 70
192
 0
VERTEX
 8
CAP_1
 10
2508.161
 20
2839.3266
 30
-3.9446
 70
192
 0
VERTEX
 8
CAP_1
 10
2493.1612
 20
2865.3075
 30
-3.9446
 70
192
 0
VERTEX
 8
CAP_1
 10
2463.1612
 20
2865.3075
 30
-3.9446
 70
192
 0
VERTEX
 8
CAP_1
 10
2448.1611
 20
2839.3268
 30
-3.9446
 70
192
 0
VERTEX
 8
CAP_1
 10
0
 20
0
 30
0
 70
128
 71
6
 72
3
 73
1
 74
1
 0
VERTEX
 8
CAP_1
 10
0
 20
0
 30
0
 70
128
 71
6
 72
5
 73
3
 74
3
 0
VERTEX
 8
CAP_1
 10
0
 20
0
 30
0
 70
128
 71
5
 72
4
 73
3
 74
3
 0
VERTEX
 8
CAP_1
 10
0
 20
0
 30
0
 70
128
 71
3
 72
2
 73
1
 74
1
 0
SEQEND
 0
POLYLINE
 8
CAP_2
 66
1
 10
0.0
 20
0.0
 30
0.0
 70
64
 71
6
 72
4
 0
VERTEX
 8
CAP_2
 10
2463.1611
 20
2813.346
 30
-4.9446
 70
192
 0
VERTEX
 8
CAP_2
 10
2493.1611
 20
2813.3459
 30
-4.9446
 70
192
 0
VERTEX
 8
CAP_2
 10
2508.161
 20
2839.3266
 30
-4.9446
 70
192
 0
VERTEX
 8
CAP_2
 10
2493.1612
 20
2865.3075
 30
-4.9446
 70
192
 0
VERTEX
 8
CAP_2
 10
2463.1612
 20
2865.3075
 30
-4.9446
 70
192
 0
VERTEX
 8
CAP_2
 10
2448.1611
 20
2839.3268
 30
-4.9446
 70
192
 0
VERTEX
 8
CAP_2
 10
0
 20
0
 30
0
 70
128
 71
1
 72
2
 73
3
 74
3
 0
VERTEX
 8
CAP_2
 10
0
 20
0
 30
0
 70
128
 71
1
 72
3
 73
6
 74
6
 0
VERTEX
 8
CAP_2
 10
0
 20
0
 30
0
 70
128
 71
3
 72
4
 73
5
 74
5
 0
VERTEX
 8
CAP_2
 10
0
 20
0
 30
0
 70
128
 71
3
 72
5
 73
6
 74
6
 0
SEQEND
 0
ENDSEC
 0
EOF
